ISO-10303-21;
HEADER;
/* Generated by software containing ST-Developer
 * from STEP Tools, Inc. (www.steptools.com) 
 */

FILE_DESCRIPTION(
/* description */ (''),
/* implementation_level */ '2;1');

FILE_NAME(
/* name */ 
'C:\\Users\\Jason Kreterfield\\Desktop\\PlungerHead\\PBPlungerHeadFron
t.stp',
/* time_stamp */ '2014-06-05T17:07:38-05:00',
/* author */ ('Jason Kreterfield'),
/* organization */ (''),
/* preprocessor_version */ 'ST-DEVELOPER v15.2',
/* originating_system */ 'Autodesk Inventor 2014',
/* authorisation */ '');

FILE_SCHEMA (('AUTOMOTIVE_DESIGN { 1 0 10303 214 3 1 1 }'));
ENDSEC;

DATA;
#10=SHAPE_REPRESENTATION_RELATIONSHIP('SRR','None',#468,#11);
#11=ADVANCED_BREP_SHAPE_REPRESENTATION($,(#225),#456);
#12=STYLED_ITEM($,(#476),#225);
#13=ELLIPSE($,#241,0.0883883476483185,0.0625);
#14=ELLIPSE($,#242,0.0883883476483184,0.0625);
#15=ELLIPSE($,#244,0.0883883476483183,0.0625);
#16=ELLIPSE($,#245,0.0883883476483184,0.0625);
#17=B_SPLINE_CURVE_WITH_KNOTS($,3,(#356,#357,#358,#359,#360,#361,#362,#363,
#364,#365,#366,#367,#368,#369,#370,#371,#372,#373,#374,#375,#376,#377,#378,
#379,#380,#381,#382,#383,#384,#385,#386,#387,#388,#389),.UNSPECIFIED.,.T.,
 .F.,(4,2,2,2,2,2,2,2,2,2,2,2,2,2,2,2,4),(0.,0.0598601967819959,0.119720393563992,
0.179580179494435,0.239439965424878,0.299299751355321,0.359159537285764,
0.419019734067759,0.478879930849755,0.538740127631751,0.598600324413747,
0.65846011034419,0.718319896274633,0.778179682205076,0.838039468135519,
0.897899664917514,0.95775986169951),.UNSPECIFIED.);
#18=B_SPLINE_CURVE_WITH_KNOTS($,3,(#396,#397,#398,#399,#400,#401,#402,#403,
#404,#405,#406,#407,#408,#409,#410,#411,#412,#413,#414,#415,#416,#417,#418,
#419,#420,#421,#422,#423,#424,#425,#426,#427,#428,#429),.UNSPECIFIED.,.T.,
 .F.,(4,2,2,2,2,2,2,2,2,2,2,2,2,2,2,2,4),(0.,0.0598601967819958,0.119720393563992,
0.179580179494435,0.239439965424878,0.299299751355321,0.359159537285764,
0.419019734067759,0.478879930849755,0.538740127631751,0.598600324413747,
0.65846011034419,0.718319896274633,0.778179682205076,0.838039468135518,
0.897899664917514,0.95775986169951),.UNSPECIFIED.);
#19=PLANE($,#232);
#20=PLANE($,#234);
#21=PLANE($,#255);
#22=CYLINDRICAL_SURFACE($,#230,0.078125);
#23=CYLINDRICAL_SURFACE($,#240,0.0625);
#24=CYLINDRICAL_SURFACE($,#243,0.0625);
#25=CYLINDRICAL_SURFACE($,#246,0.0625);
#26=CYLINDRICAL_SURFACE($,#247,0.0625);
#27=CYLINDRICAL_SURFACE($,#248,0.0546875);
#28=CYLINDRICAL_SURFACE($,#250,0.0546875);
#29=CYLINDRICAL_SURFACE($,#252,0.525);
#30=CYLINDRICAL_SURFACE($,#259,0.255);
#31=CYLINDRICAL_SURFACE($,#260,0.63);
#32=FACE_BOUND($,#71,.T.);
#33=FACE_BOUND($,#73,.T.);
#34=FACE_BOUND($,#74,.T.);
#35=FACE_BOUND($,#75,.T.);
#36=FACE_BOUND($,#76,.T.);
#37=FACE_BOUND($,#77,.T.);
#38=FACE_BOUND($,#78,.T.);
#39=FACE_BOUND($,#79,.T.);
#40=FACE_BOUND($,#80,.T.);
#41=FACE_BOUND($,#81,.T.);
#42=FACE_BOUND($,#83,.T.);
#43=FACE_BOUND($,#85,.T.);
#44=FACE_BOUND($,#87,.T.);
#45=FACE_BOUND($,#89,.T.);
#46=FACE_BOUND($,#91,.T.);
#47=FACE_BOUND($,#93,.T.);
#48=FACE_BOUND($,#94,.T.);
#49=FACE_BOUND($,#95,.T.);
#50=FACE_BOUND($,#96,.T.);
#51=FACE_BOUND($,#97,.T.);
#52=FACE_BOUND($,#98,.T.);
#53=FACE_BOUND($,#99,.T.);
#54=FACE_BOUND($,#100,.T.);
#55=FACE_BOUND($,#101,.T.);
#56=FACE_BOUND($,#103,.T.);
#57=FACE_BOUND($,#105,.T.);
#58=FACE_BOUND($,#107,.T.);
#59=FACE_OUTER_BOUND($,#70,.T.);
#60=FACE_OUTER_BOUND($,#72,.T.);
#61=FACE_OUTER_BOUND($,#82,.T.);
#62=FACE_OUTER_BOUND($,#84,.T.);
#63=FACE_OUTER_BOUND($,#86,.T.);
#64=FACE_OUTER_BOUND($,#88,.T.);
#65=FACE_OUTER_BOUND($,#90,.T.);
#66=FACE_OUTER_BOUND($,#92,.T.);
#67=FACE_OUTER_BOUND($,#102,.T.);
#68=FACE_OUTER_BOUND($,#104,.T.);
#69=FACE_OUTER_BOUND($,#106,.T.);
#70=EDGE_LOOP($,(#165));
#71=EDGE_LOOP($,(#166));
#72=EDGE_LOOP($,(#167));
#73=EDGE_LOOP($,(#168));
#74=EDGE_LOOP($,(#169));
#75=EDGE_LOOP($,(#170));
#76=EDGE_LOOP($,(#171));
#77=EDGE_LOOP($,(#172));
#78=EDGE_LOOP($,(#173));
#79=EDGE_LOOP($,(#174));
#80=EDGE_LOOP($,(#175));
#81=EDGE_LOOP($,(#176));
#82=EDGE_LOOP($,(#177));
#83=EDGE_LOOP($,(#178,#179));
#84=EDGE_LOOP($,(#180));
#85=EDGE_LOOP($,(#181,#182));
#86=EDGE_LOOP($,(#183));
#87=EDGE_LOOP($,(#184,#185));
#88=EDGE_LOOP($,(#186));
#89=EDGE_LOOP($,(#187,#188));
#90=EDGE_LOOP($,(#189));
#91=EDGE_LOOP($,(#190));
#92=EDGE_LOOP($,(#191));
#93=EDGE_LOOP($,(#192));
#94=EDGE_LOOP($,(#193));
#95=EDGE_LOOP($,(#194));
#96=EDGE_LOOP($,(#195));
#97=EDGE_LOOP($,(#196));
#98=EDGE_LOOP($,(#197));
#99=EDGE_LOOP($,(#198));
#100=EDGE_LOOP($,(#199));
#101=EDGE_LOOP($,(#200));
#102=EDGE_LOOP($,(#201));
#103=EDGE_LOOP($,(#202));
#104=EDGE_LOOP($,(#203));
#105=EDGE_LOOP($,(#204));
#106=EDGE_LOOP($,(#205));
#107=EDGE_LOOP($,(#206));
#108=CIRCLE($,#228,0.1375);
#109=CIRCLE($,#229,0.078125);
#110=CIRCLE($,#231,0.078125);
#111=CIRCLE($,#233,0.255);
#112=CIRCLE($,#235,0.0625);
#113=CIRCLE($,#236,0.0625);
#114=CIRCLE($,#237,0.0546875);
#115=CIRCLE($,#238,0.0546875);
#116=CIRCLE($,#239,0.63);
#117=CIRCLE($,#249,0.0546875);
#118=CIRCLE($,#251,0.0546875);
#119=CIRCLE($,#253,0.525);
#120=CIRCLE($,#254,0.525);
#121=CIRCLE($,#256,0.255);
#122=CIRCLE($,#258,0.63);
#123=VERTEX_POINT($,#333);
#124=VERTEX_POINT($,#335);
#125=VERTEX_POINT($,#338);
#126=VERTEX_POINT($,#341);
#127=VERTEX_POINT($,#344);
#128=VERTEX_POINT($,#346);
#129=VERTEX_POINT($,#348);
#130=VERTEX_POINT($,#350);
#131=VERTEX_POINT($,#352);
#132=VERTEX_POINT($,#355);
#133=VERTEX_POINT($,#390);
#134=VERTEX_POINT($,#391);
#135=VERTEX_POINT($,#395);
#136=VERTEX_POINT($,#430);
#137=VERTEX_POINT($,#431);
#138=VERTEX_POINT($,#437);
#139=VERTEX_POINT($,#440);
#140=VERTEX_POINT($,#443);
#141=VERTEX_POINT($,#445);
#142=VERTEX_POINT($,#448);
#143=VERTEX_POINT($,#451);
#144=EDGE_CURVE($,#123,#123,#108,.T.);
#145=EDGE_CURVE($,#124,#124,#109,.T.);
#146=EDGE_CURVE($,#125,#125,#110,.T.);
#147=EDGE_CURVE($,#126,#126,#111,.T.);
#148=EDGE_CURVE($,#127,#127,#112,.T.);
#149=EDGE_CURVE($,#128,#128,#113,.T.);
#150=EDGE_CURVE($,#129,#129,#114,.T.);
#151=EDGE_CURVE($,#130,#130,#115,.T.);
#152=EDGE_CURVE($,#131,#131,#116,.T.);
#153=EDGE_CURVE($,#132,#132,#17,.T.);
#154=EDGE_CURVE($,#133,#134,#13,.T.);
#155=EDGE_CURVE($,#134,#133,#14,.T.);
#156=EDGE_CURVE($,#135,#135,#18,.T.);
#157=EDGE_CURVE($,#136,#137,#15,.T.);
#158=EDGE_CURVE($,#137,#136,#16,.T.);
#159=EDGE_CURVE($,#138,#138,#117,.T.);
#160=EDGE_CURVE($,#139,#139,#118,.T.);
#161=EDGE_CURVE($,#140,#140,#119,.T.);
#162=EDGE_CURVE($,#141,#141,#120,.T.);
#163=EDGE_CURVE($,#142,#142,#121,.T.);
#164=EDGE_CURVE($,#143,#143,#122,.T.);
#165=ORIENTED_EDGE($,*,*,#144,.T.);
#166=ORIENTED_EDGE($,*,*,#145,.T.);
#167=ORIENTED_EDGE($,*,*,#146,.T.);
#168=ORIENTED_EDGE($,*,*,#145,.F.);
#169=ORIENTED_EDGE($,*,*,#146,.F.);
#170=ORIENTED_EDGE($,*,*,#147,.F.);
#171=ORIENTED_EDGE($,*,*,#144,.F.);
#172=ORIENTED_EDGE($,*,*,#148,.F.);
#173=ORIENTED_EDGE($,*,*,#149,.F.);
#174=ORIENTED_EDGE($,*,*,#150,.F.);
#175=ORIENTED_EDGE($,*,*,#151,.F.);
#176=ORIENTED_EDGE($,*,*,#152,.F.);
#177=ORIENTED_EDGE($,*,*,#153,.T.);
#178=ORIENTED_EDGE($,*,*,#154,.F.);
#179=ORIENTED_EDGE($,*,*,#155,.F.);
#180=ORIENTED_EDGE($,*,*,#156,.T.);
#181=ORIENTED_EDGE($,*,*,#157,.F.);
#182=ORIENTED_EDGE($,*,*,#158,.F.);
#183=ORIENTED_EDGE($,*,*,#149,.T.);
#184=ORIENTED_EDGE($,*,*,#155,.T.);
#185=ORIENTED_EDGE($,*,*,#154,.T.);
#186=ORIENTED_EDGE($,*,*,#148,.T.);
#187=ORIENTED_EDGE($,*,*,#158,.T.);
#188=ORIENTED_EDGE($,*,*,#157,.T.);
#189=ORIENTED_EDGE($,*,*,#151,.T.);
#190=ORIENTED_EDGE($,*,*,#159,.T.);
#191=ORIENTED_EDGE($,*,*,#150,.T.);
#192=ORIENTED_EDGE($,*,*,#160,.T.);
#193=ORIENTED_EDGE($,*,*,#153,.F.);
#194=ORIENTED_EDGE($,*,*,#156,.F.);
#195=ORIENTED_EDGE($,*,*,#161,.T.);
#196=ORIENTED_EDGE($,*,*,#162,.F.);
#197=ORIENTED_EDGE($,*,*,#159,.F.);
#198=ORIENTED_EDGE($,*,*,#160,.F.);
#199=ORIENTED_EDGE($,*,*,#163,.F.);
#200=ORIENTED_EDGE($,*,*,#161,.F.);
#201=ORIENTED_EDGE($,*,*,#164,.F.);
#202=ORIENTED_EDGE($,*,*,#162,.T.);
#203=ORIENTED_EDGE($,*,*,#163,.T.);
#204=ORIENTED_EDGE($,*,*,#147,.T.);
#205=ORIENTED_EDGE($,*,*,#152,.T.);
#206=ORIENTED_EDGE($,*,*,#164,.T.);
#207=CONICAL_SURFACE($,#227,0.1078125,41.);
#208=CONICAL_SURFACE($,#257,0.63,33.9011007503577);
#209=ADVANCED_FACE($,(#59,#32),#207,.F.);
#210=ADVANCED_FACE($,(#60,#33),#22,.F.);
#211=ADVANCED_FACE($,(#34,#35),#19,.F.);
#212=ADVANCED_FACE($,(#36,#37,#38,#39,#40,#41),#20,.T.);
#213=ADVANCED_FACE($,(#61,#42),#23,.F.);
#214=ADVANCED_FACE($,(#62,#43),#24,.F.);
#215=ADVANCED_FACE($,(#63,#44),#25,.F.);
#216=ADVANCED_FACE($,(#64,#45),#26,.F.);
#217=ADVANCED_FACE($,(#65,#46),#27,.F.);
#218=ADVANCED_FACE($,(#66,#47),#28,.F.);
#219=ADVANCED_FACE($,(#48,#49,#50,#51),#29,.T.);
#220=ADVANCED_FACE($,(#52,#53,#54,#55),#21,.F.);
#221=ADVANCED_FACE($,(#67,#56),#208,.T.);
#222=ADVANCED_FACE($,(#68,#57),#30,.F.);
#223=ADVANCED_FACE($,(#69,#58),#31,.T.);
#224=CLOSED_SHELL($,(#209,#210,#211,#212,#213,#214,#215,#216,#217,#218,
#219,#220,#221,#222,#223));
#225=MANIFOLD_SOLID_BREP('Solid1',#224);
#226=AXIS2_PLACEMENT_3D('placement',#331,#261,#262);
#227=AXIS2_PLACEMENT_3D($,#332,#263,#264);
#228=AXIS2_PLACEMENT_3D($,#334,#265,#266);
#229=AXIS2_PLACEMENT_3D($,#336,#267,#268);
#230=AXIS2_PLACEMENT_3D($,#337,#269,#270);
#231=AXIS2_PLACEMENT_3D($,#339,#271,#272);
#232=AXIS2_PLACEMENT_3D($,#340,#273,#274);
#233=AXIS2_PLACEMENT_3D($,#342,#275,#276);
#234=AXIS2_PLACEMENT_3D($,#343,#277,#278);
#235=AXIS2_PLACEMENT_3D($,#345,#279,#280);
#236=AXIS2_PLACEMENT_3D($,#347,#281,#282);
#237=AXIS2_PLACEMENT_3D($,#349,#283,#284);
#238=AXIS2_PLACEMENT_3D($,#351,#285,#286);
#239=AXIS2_PLACEMENT_3D($,#353,#287,#288);
#240=AXIS2_PLACEMENT_3D($,#354,#289,#290);
#241=AXIS2_PLACEMENT_3D($,#392,#291,#292);
#242=AXIS2_PLACEMENT_3D($,#393,#293,#294);
#243=AXIS2_PLACEMENT_3D($,#394,#295,#296);
#244=AXIS2_PLACEMENT_3D($,#432,#297,#298);
#245=AXIS2_PLACEMENT_3D($,#433,#299,#300);
#246=AXIS2_PLACEMENT_3D($,#434,#301,#302);
#247=AXIS2_PLACEMENT_3D($,#435,#303,#304);
#248=AXIS2_PLACEMENT_3D($,#436,#305,#306);
#249=AXIS2_PLACEMENT_3D($,#438,#307,#308);
#250=AXIS2_PLACEMENT_3D($,#439,#309,#310);
#251=AXIS2_PLACEMENT_3D($,#441,#311,#312);
#252=AXIS2_PLACEMENT_3D($,#442,#313,#314);
#253=AXIS2_PLACEMENT_3D($,#444,#315,#316);
#254=AXIS2_PLACEMENT_3D($,#446,#317,#318);
#255=AXIS2_PLACEMENT_3D($,#447,#319,#320);
#256=AXIS2_PLACEMENT_3D($,#449,#321,#322);
#257=AXIS2_PLACEMENT_3D($,#450,#323,#324);
#258=AXIS2_PLACEMENT_3D($,#452,#325,#326);
#259=AXIS2_PLACEMENT_3D($,#453,#327,#328);
#260=AXIS2_PLACEMENT_3D($,#454,#329,#330);
#261=DIRECTION('axis',(0.,0.,1.));
#262=DIRECTION('refdir',(1.,0.,0.));
#263=DIRECTION('center_axis',(0.,0.,1.));
#264=DIRECTION('ref_axis',(-1.,0.,0.));
#265=DIRECTION('center_axis',(0.,0.,1.));
#266=DIRECTION('ref_axis',(-1.,0.,0.));
#267=DIRECTION('center_axis',(0.,0.,-1.));
#268=DIRECTION('ref_axis',(-1.,0.,0.));
#269=DIRECTION('center_axis',(0.,0.,-1.));
#270=DIRECTION('ref_axis',(-1.,0.,0.));
#271=DIRECTION('center_axis',(0.,0.,-1.));
#272=DIRECTION('ref_axis',(-1.,0.,0.));
#273=DIRECTION('center_axis',(0.,0.,1.));
#274=DIRECTION('ref_axis',(1.,0.,0.));
#275=DIRECTION('center_axis',(0.,0.,1.));
#276=DIRECTION('ref_axis',(-1.,0.,0.));
#277=DIRECTION('center_axis',(0.,0.,1.));
#278=DIRECTION('ref_axis',(1.,0.,0.));
#279=DIRECTION('center_axis',(0.,0.,1.));
#280=DIRECTION('ref_axis',(1.,0.,0.));
#281=DIRECTION('center_axis',(0.,0.,1.));
#282=DIRECTION('ref_axis',(1.,0.,0.));
#283=DIRECTION('center_axis',(0.,0.,1.));
#284=DIRECTION('ref_axis',(1.,0.,0.));
#285=DIRECTION('center_axis',(0.,0.,1.));
#286=DIRECTION('ref_axis',(1.,0.,0.));
#287=DIRECTION('center_axis',(0.,0.,-1.));
#288=DIRECTION('ref_axis',(1.,0.,0.));
#289=DIRECTION('center_axis',(-1.,0.,0.));
#290=DIRECTION('ref_axis',(0.,-1.,0.));
#291=DIRECTION('center_axis',(0.707106781186548,0.,-0.707106781186547));
#292=DIRECTION('ref_axis',(0.707106781186547,0.,0.707106781186548));
#293=DIRECTION('center_axis',(0.707106781186547,0.,-0.707106781186548));
#294=DIRECTION('ref_axis',(0.707106781186548,0.,0.707106781186547));
#295=DIRECTION('center_axis',(-1.,0.,0.));
#296=DIRECTION('ref_axis',(0.,-1.,0.));
#297=DIRECTION('center_axis',(-0.707106781186547,0.,-0.707106781186549));
#298=DIRECTION('ref_axis',(0.707106781186549,0.,-0.707106781186547));
#299=DIRECTION('center_axis',(-0.707106781186547,0.,-0.707106781186548));
#300=DIRECTION('ref_axis',(0.707106781186548,0.,-0.707106781186547));
#301=DIRECTION('center_axis',(0.,0.,1.));
#302=DIRECTION('ref_axis',(1.,0.,0.));
#303=DIRECTION('center_axis',(0.,0.,1.));
#304=DIRECTION('ref_axis',(1.,0.,0.));
#305=DIRECTION('center_axis',(0.,0.,1.));
#306=DIRECTION('ref_axis',(1.,0.,0.));
#307=DIRECTION('center_axis',(0.,0.,-1.));
#308=DIRECTION('ref_axis',(1.,0.,0.));
#309=DIRECTION('center_axis',(0.,0.,1.));
#310=DIRECTION('ref_axis',(1.,0.,0.));
#311=DIRECTION('center_axis',(0.,0.,-1.));
#312=DIRECTION('ref_axis',(1.,0.,0.));
#313=DIRECTION('center_axis',(0.,0.,1.));
#314=DIRECTION('ref_axis',(-1.,0.,0.));
#315=DIRECTION('center_axis',(0.,0.,1.));
#316=DIRECTION('ref_axis',(-1.,0.,0.));
#317=DIRECTION('center_axis',(0.,0.,1.));
#318=DIRECTION('ref_axis',(-1.,0.,0.));
#319=DIRECTION('center_axis',(0.,0.,1.));
#320=DIRECTION('ref_axis',(1.,0.,0.));
#321=DIRECTION('center_axis',(0.,0.,-1.));
#322=DIRECTION('ref_axis',(-1.,0.,0.));
#323=DIRECTION('center_axis',(0.,0.,1.));
#324=DIRECTION('ref_axis',(-1.,0.,0.));
#325=DIRECTION('center_axis',(0.,0.,1.));
#326=DIRECTION('ref_axis',(-1.,0.,0.));
#327=DIRECTION('center_axis',(0.,0.,1.));
#328=DIRECTION('ref_axis',(-1.,0.,0.));
#329=DIRECTION('center_axis',(0.,0.,1.));
#330=DIRECTION('ref_axis',(-1.,0.,0.));
#331=CARTESIAN_POINT('',(0.,0.,0.));
#332=CARTESIAN_POINT('Origin',(0.,0.,1.21584843791063));
#333=CARTESIAN_POINT('',(-0.1375,0.,1.25));
#334=CARTESIAN_POINT('Origin',(0.,0.,1.25));
#335=CARTESIAN_POINT('',(-0.078125,0.,1.18169687582125));
#336=CARTESIAN_POINT('Origin',(0.,0.,1.18169687582125));
#337=CARTESIAN_POINT('Origin',(0.,0.,-0.659936190033583));
#338=CARTESIAN_POINT('',(0.078125,-9.5675531183387E-018,1.125));
#339=CARTESIAN_POINT('Origin',(0.,0.,1.125));
#340=CARTESIAN_POINT('Origin',(4.28494831001215E-017,0.,1.125));
#341=CARTESIAN_POINT('',(0.255,3.12284933782575E-017,1.125));
#342=CARTESIAN_POINT('Origin',(0.,0.,1.125));
#343=CARTESIAN_POINT('Origin',(4.28494831001215E-017,0.,1.25));
#344=CARTESIAN_POINT('',(-0.436515748031496,7.65404249467096E-018,1.25));
#345=CARTESIAN_POINT('Origin',(-0.374015748031496,0.,1.25));
#346=CARTESIAN_POINT('',(0.311515748031496,7.65404249467096E-018,1.25));
#347=CARTESIAN_POINT('Origin',(0.374015748031496,0.,1.25));
#348=CARTESIAN_POINT('',(-0.0546875,-0.393700787401575,1.25));
#349=CARTESIAN_POINT('Origin',(0.,-0.393700787401575,1.25));
#350=CARTESIAN_POINT('',(-0.0546875,0.393700787401575,1.25));
#351=CARTESIAN_POINT('Origin',(0.,0.393700787401575,1.25));
#352=CARTESIAN_POINT('',(-0.63,7.71527483462832E-017,1.25));
#353=CARTESIAN_POINT('Origin',(0.,0.,1.25));
#354=CARTESIAN_POINT('Origin',(0.,0.,0.71875));
#355=CARTESIAN_POINT('',(0.521266486549826,0.0625,0.71875));
#356=CARTESIAN_POINT('Ctrl Pts',(0.521266486549826,0.0625,0.71875));
#357=CARTESIAN_POINT('Ctrl Pts',(0.521266486549826,0.0625,0.726605668869028));
#358=CARTESIAN_POINT('Ctrl Pts',(0.521462384850941,0.0609285157667419,0.734979818171831));
#359=CARTESIAN_POINT('Ctrl Pts',(0.522168396341765,0.054547856479288,0.750376293798286));
#360=CARTESIAN_POINT('Ctrl Pts',(0.522668144028992,0.0497390862126752,0.757399261435643));
#361=CARTESIAN_POINT('Ctrl Pts',(0.523605000648009,0.0386492994932505,0.768489048155068));
#362=CARTESIAN_POINT('Ctrl Pts',(0.524103198656651,0.0316263152797738,0.773297848218997));
#363=CARTESIAN_POINT('Ctrl Pts',(0.524805660012527,0.0162297836557155,0.779678529428887));
#364=CARTESIAN_POINT('Ctrl Pts',(0.525,0.00785561495150167,0.78125));
#365=CARTESIAN_POINT('Ctrl Pts',(0.525,-0.00785561495150172,0.78125));
#366=CARTESIAN_POINT('Ctrl Pts',(0.524805660012527,-0.0162297836557156,
0.779678529428887));
#367=CARTESIAN_POINT('Ctrl Pts',(0.524103198656651,-0.0316263152797739,
0.773297848218997));
#368=CARTESIAN_POINT('Ctrl Pts',(0.523605000648009,-0.0386492994932506,
0.768489048155068));
#369=CARTESIAN_POINT('Ctrl Pts',(0.522668144028992,-0.0497390862126752,
0.757399261435643));
#370=CARTESIAN_POINT('Ctrl Pts',(0.522168396341765,-0.054547856479288,0.750376293798286));
#371=CARTESIAN_POINT('Ctrl Pts',(0.521462384850941,-0.0609285157667419,
0.734979818171831));
#372=CARTESIAN_POINT('Ctrl Pts',(0.521266486549826,-0.0625,0.726605668869028));
#373=CARTESIAN_POINT('Ctrl Pts',(0.521266486549826,-0.0625,0.710894331130972));
#374=CARTESIAN_POINT('Ctrl Pts',(0.521462384850941,-0.0609285157667419,
0.702520181828169));
#375=CARTESIAN_POINT('Ctrl Pts',(0.522168396341765,-0.054547856479288,0.687123706201714));
#376=CARTESIAN_POINT('Ctrl Pts',(0.522668144028992,-0.0497390862126752,
0.680100738564357));
#377=CARTESIAN_POINT('Ctrl Pts',(0.523605000648009,-0.0386492994932506,
0.669010951844932));
#378=CARTESIAN_POINT('Ctrl Pts',(0.524103198656651,-0.031626315279774,0.664202151781003));
#379=CARTESIAN_POINT('Ctrl Pts',(0.524805660012527,-0.0162297836557156,
0.657821470571113));
#380=CARTESIAN_POINT('Ctrl Pts',(0.525,-0.0078556149515017,0.65625));
#381=CARTESIAN_POINT('Ctrl Pts',(0.525,0.00785561495150171,0.65625));
#382=CARTESIAN_POINT('Ctrl Pts',(0.524805660012527,0.0162297836557156,0.657821470571113));
#383=CARTESIAN_POINT('Ctrl Pts',(0.524103198656651,0.031626315279774,0.664202151781003));
#384=CARTESIAN_POINT('Ctrl Pts',(0.523605000648009,0.0386492994932506,0.669010951844932));
#385=CARTESIAN_POINT('Ctrl Pts',(0.522668144028992,0.0497390862126752,0.680100738564357));
#386=CARTESIAN_POINT('Ctrl Pts',(0.522168396341765,0.054547856479288,0.687123706201714));
#387=CARTESIAN_POINT('Ctrl Pts',(0.521462384850941,0.0609285157667419,0.702520181828169));
#388=CARTESIAN_POINT('Ctrl Pts',(0.521266486549826,0.0625,0.710894331130972));
#389=CARTESIAN_POINT('Ctrl Pts',(0.521266486549826,0.0625,0.71875));
#390=CARTESIAN_POINT('',(0.374015748031496,-0.0625,0.71875));
#391=CARTESIAN_POINT('',(0.374015748031496,0.0625,0.71875));
#392=CARTESIAN_POINT('Origin',(0.374015748031496,0.,0.71875));
#393=CARTESIAN_POINT('Origin',(0.374015748031496,0.,0.71875));
#394=CARTESIAN_POINT('Origin',(0.,0.,0.71875));
#395=CARTESIAN_POINT('',(-0.521266486549826,0.0625,0.71875));
#396=CARTESIAN_POINT('Ctrl Pts',(-0.521266486549826,0.0625,0.71875));
#397=CARTESIAN_POINT('Ctrl Pts',(-0.521266486549826,0.0625,0.710894331130972));
#398=CARTESIAN_POINT('Ctrl Pts',(-0.521462384850941,0.0609285157667419,
0.702520181828169));
#399=CARTESIAN_POINT('Ctrl Pts',(-0.522168396341765,0.054547856479288,0.687123706201714));
#400=CARTESIAN_POINT('Ctrl Pts',(-0.522668144028992,0.0497390862126752,
0.680100738564357));
#401=CARTESIAN_POINT('Ctrl Pts',(-0.523605000648009,0.0386492994932506,
0.669010951844932));
#402=CARTESIAN_POINT('Ctrl Pts',(-0.524103198656651,0.031626315279774,0.664202151781003));
#403=CARTESIAN_POINT('Ctrl Pts',(-0.524805660012527,0.0162297836557156,
0.657821470571113));
#404=CARTESIAN_POINT('Ctrl Pts',(-0.525,0.00785561495150171,0.65625));
#405=CARTESIAN_POINT('Ctrl Pts',(-0.525,-0.0078556149515017,0.65625));
#406=CARTESIAN_POINT('Ctrl Pts',(-0.524805660012527,-0.0162297836557156,
0.657821470571113));
#407=CARTESIAN_POINT('Ctrl Pts',(-0.524103198656651,-0.031626315279774,
0.664202151781003));
#408=CARTESIAN_POINT('Ctrl Pts',(-0.523605000648009,-0.0386492994932506,
0.669010951844932));
#409=CARTESIAN_POINT('Ctrl Pts',(-0.522668144028992,-0.0497390862126752,
0.680100738564357));
#410=CARTESIAN_POINT('Ctrl Pts',(-0.522168396341765,-0.0545478564792881,
0.687123706201714));
#411=CARTESIAN_POINT('Ctrl Pts',(-0.521462384850941,-0.060928515766742,
0.70252018182817));
#412=CARTESIAN_POINT('Ctrl Pts',(-0.521266486549826,-0.0625,0.710894331130972));
#413=CARTESIAN_POINT('Ctrl Pts',(-0.521266486549826,-0.0625,0.726605668869028));
#414=CARTESIAN_POINT('Ctrl Pts',(-0.521462384850941,-0.0609285157667419,
0.734979818171831));
#415=CARTESIAN_POINT('Ctrl Pts',(-0.522168396341765,-0.054547856479288,
0.750376293798286));
#416=CARTESIAN_POINT('Ctrl Pts',(-0.522668144028992,-0.0497390862126752,
0.757399261435643));
#417=CARTESIAN_POINT('Ctrl Pts',(-0.523605000648009,-0.0386492994932506,
0.768489048155068));
#418=CARTESIAN_POINT('Ctrl Pts',(-0.524103198656651,-0.0316263152797739,
0.773297848218997));
#419=CARTESIAN_POINT('Ctrl Pts',(-0.524805660012527,-0.0162297836557156,
0.779678529428887));
#420=CARTESIAN_POINT('Ctrl Pts',(-0.525,-0.00785561495150172,0.78125));
#421=CARTESIAN_POINT('Ctrl Pts',(-0.525,0.00785561495150168,0.78125));
#422=CARTESIAN_POINT('Ctrl Pts',(-0.524805660012527,0.0162297836557155,
0.779678529428887));
#423=CARTESIAN_POINT('Ctrl Pts',(-0.524103198656651,0.0316263152797739,
0.773297848218997));
#424=CARTESIAN_POINT('Ctrl Pts',(-0.523605000648009,0.0386492994932505,
0.768489048155068));
#425=CARTESIAN_POINT('Ctrl Pts',(-0.522668144028992,0.0497390862126752,
0.757399261435643));
#426=CARTESIAN_POINT('Ctrl Pts',(-0.522168396341765,0.054547856479288,0.750376293798286));
#427=CARTESIAN_POINT('Ctrl Pts',(-0.521462384850941,0.0609285157667419,
0.734979818171831));
#428=CARTESIAN_POINT('Ctrl Pts',(-0.521266486549826,0.0625,0.726605668869028));
#429=CARTESIAN_POINT('Ctrl Pts',(-0.521266486549826,0.0625,0.71875));
#430=CARTESIAN_POINT('',(-0.374015748031496,0.0625,0.71875));
#431=CARTESIAN_POINT('',(-0.374015748031496,-0.0625,0.71875));
#432=CARTESIAN_POINT('Origin',(-0.374015748031496,0.,0.71875));
#433=CARTESIAN_POINT('Origin',(-0.374015748031496,0.,0.71875));
#434=CARTESIAN_POINT('Origin',(0.374015748031496,0.,1.125));
#435=CARTESIAN_POINT('Origin',(-0.374015748031496,0.,1.125));
#436=CARTESIAN_POINT('Origin',(0.,0.393700787401575,2.43108402272951));
#437=CARTESIAN_POINT('',(0.0546875,0.393700787401575,0.5625));
#438=CARTESIAN_POINT('Origin',(0.,0.393700787401575,0.5625));
#439=CARTESIAN_POINT('Origin',(0.,-0.393700787401575,2.43108402272951));
#440=CARTESIAN_POINT('',(0.0546875,-0.393700787401575,0.5625));
#441=CARTESIAN_POINT('Origin',(0.,-0.393700787401575,0.5625));
#442=CARTESIAN_POINT('Origin',(0.,0.,0.875));
#443=CARTESIAN_POINT('',(0.525,6.4293956955236E-017,0.5625));
#444=CARTESIAN_POINT('Origin',(0.,0.,0.5625));
#445=CARTESIAN_POINT('',(0.525,6.4293956955236E-017,0.875));
#446=CARTESIAN_POINT('Origin',(0.,0.,0.875));
#447=CARTESIAN_POINT('Origin',(-2.72098821890284E-017,1.09260262213794E-017,
0.5625));
#448=CARTESIAN_POINT('',(0.255,3.12284933782575E-017,0.5625));
#449=CARTESIAN_POINT('Origin',(0.,0.,0.5625));
#450=CARTESIAN_POINT('Origin',(0.,0.,1.03125));
#451=CARTESIAN_POINT('',(0.63,7.71527483462832E-017,1.03125));
#452=CARTESIAN_POINT('Origin',(0.,0.,1.03125));
#453=CARTESIAN_POINT('Origin',(0.,0.,1.125));
#454=CARTESIAN_POINT('Origin',(0.,0.,1.125));
#455=UNCERTAINTY_MEASURE_WITH_UNIT(LENGTH_MEASURE(0.000393700787401575),
#457,'DISTANCE_ACCURACY_VALUE',
'Maximum model space distance between geometric entities at asserted c
onnectivities');
#456=(
GEOMETRIC_REPRESENTATION_CONTEXT(3)
GLOBAL_UNCERTAINTY_ASSIGNED_CONTEXT((#455))
GLOBAL_UNIT_ASSIGNED_CONTEXT((#457,#463,#460))
REPRESENTATION_CONTEXT('','3D')
);
#457=(
CONVERSION_BASED_UNIT('__CONSTANT UNIT inch',#459)
LENGTH_UNIT()
NAMED_UNIT(#462)
);
#458=(
LENGTH_UNIT()
NAMED_UNIT(*)
SI_UNIT(.MILLI.,.METRE.)
);
#459=LENGTH_MEASURE_WITH_UNIT(LENGTH_MEASURE(25.4),#458);
#460=(
NAMED_UNIT(*)
SI_UNIT($,.STERADIAN.)
SOLID_ANGLE_UNIT()
);
#461=DIMENSIONAL_EXPONENTS(0.,0.,0.,0.,0.,0.,0.);
#462=DIMENSIONAL_EXPONENTS(1.,0.,0.,0.,0.,0.,0.);
#463=(
CONVERSION_BASED_UNIT('degree',#465)
NAMED_UNIT(#461)
PLANE_ANGLE_UNIT()
);
#464=(
NAMED_UNIT(*)
PLANE_ANGLE_UNIT()
SI_UNIT($,.RADIAN.)
);
#465=PLANE_ANGLE_MEASURE_WITH_UNIT(PLANE_ANGLE_MEASURE(0.01745329252),#464);
#466=SHAPE_DEFINITION_REPRESENTATION(#467,#468);
#467=PRODUCT_DEFINITION_SHAPE('',$,#470);
#468=SHAPE_REPRESENTATION('',(#226),#456);
#469=PRODUCT_DEFINITION_CONTEXT('3D Mechanical Parts',#473,'design');
#470=PRODUCT_DEFINITION('PBPlungerHeadFront','PBPlungerHeadFront',#471,
#469);
#471=PRODUCT_DEFINITION_FORMATION('',$,#475);
#472=APPLICATION_PROTOCOL_DEFINITION('international standard',
'automotive_design',2009,#473);
#473=APPLICATION_CONTEXT(
'Core Data for Automotive Mechanical Design Process');
#474=PRODUCT_CONTEXT('3D Mechanical Parts',#473,'mechanical');
#475=PRODUCT('PBPlungerHeadFront','PBPlungerHeadFront',$,(#474));
#476=PRESENTATION_STYLE_ASSIGNMENT((#477));
#477=SURFACE_STYLE_USAGE(.BOTH.,#478);
#478=SURFACE_SIDE_STYLE($,(#479));
#479=SURFACE_STYLE_FILL_AREA(#480);
#480=FILL_AREA_STYLE($,(#481));
#481=FILL_AREA_STYLE_COLOUR($,#482);
#482=COLOUR_RGB('',0.0627450980392157,0.670588235294118,0.290196078431373);
ENDSEC;
END-ISO-10303-21;
